Что такое табулатура - учимся читать и записывать табы

Аннотация: Табы - это весьма удобный способ записи игры на гитаре. Табы имеют свои плюсы и минусы. В данной статье рассмотрено то и другое. Так же, прочитав эту статью, Вы научитесь правильно читать, записывать и играть мелодии, которые записаны на табах.

Табулатуры (по eng. tablature) - это один из самых старых способов записи игры на гитаре (на которой играются песни под гитару), имеет графический способ записи.

Что такое табулатура - учимся читать и записывать табы

Табулатуры: преимущество и не достатки

Основным преимуществом табулатур является то, что они очень хорошо описывают тот или иной способ игры на гитаре. Т.е когда мы смотрим на табулатуру, там наглядно нарисовано, как правильно располагать пальцы рук на грифе гитары. Кстати, на табулатурах так же записываются и аккорды для гитары.

Но как и все на этом свете, табулатуры имеют свои недостатки. Табы хорошо показывают расположение пальцев на гитарном грифе, но описание, не позволяет реально ощутить длительность той или иной ноты (т.е не дает возможность точно узнать, как долго по времени необходимо играть).

Преимущества и недостатки мы узнали, давайте посмотрим как записываются и читаются табулатуры.

Учимся читать и записывать табулатуры

Общий вид записи табулатур - это изображение грифа гитары. Пример:

e|-------------------------------------------------------|
B|-------------------------------------------------------|
G|-------------------------------------------------------|
D|-------------------------------------------------------|
A|-------------------------------------------------------|
E|-------------------------------------------------------|

В первую очередь записываются гитарные струны (их обозначения мы должны помнить из первого урока). Далее идет запись грифа и струн, которые необходимо играть.

Цифры, изображенные на грифе - это лад, на котором необходимо зажать струну. Пример:

e|----3-------------------
B|------------------------
G|------------------------
D|------------------------
A|------------------------
E|------------------------

Т.е, данная табулатура говорит Вам, что необходимо зажать первую струну на 3-ем ладу, после чего дернуть ее.

Если необходимо звучание открытой струны, то тогда на табулатуре пишется символ O.

Играем мелодию по табулатуре

Как записываются и читаются табулатуры, Вы теперь знаете. Давайте перейдем к более сложному - попробуем сыграть какую-нибудь простую мелодию на гитаре, записанную на табулатуре.

В пример, мы возьмем вступление песни Кукла колдуна, которую исполняет группа Король и Шут.

Вот так выглядит вступление на табах:

1|---------------------------------------6--5-5--------6-5------|
2|-6--5-5-------6--5-------5-6-------------------6-6--------5---|
3|---------7-7--------7-7---------------------------------------|
4|--------------------------------------------------------------|
5|--------------------------------------------------------------|
6|--------------------------------------------------------------|

Давайте рассмотрим, как это играется. Сначала, играется вторая струна на 6-том ладу, после два раза этажа струна на 5-том. После 2 раза вторая струна на 3-тем ладу. Далее играется вторая струна, по одному разу на 6-том,5 и 3 ладах, после чего поднимаемся вверх, т.е 3-5-6 лады на второй струне. После переходим на первую струну и играем ее 1 раз на 6-том ладу и 2 раза на 5-том. После чего, мы переходим снова на 2-ю струну и играем два раза на 6-том ладу. Опять первая струна, играем 6-5 лад и заканчиваем на второй струне, на 5-том ладу.

Надеемся, наша статья помогла Вам в очередном шаге обучения игры на гитаре! С уважением, портал PesniGitara!

Отзывы пользователей:
Для связи с администратором: killger@gmail.com
©2013 - 2016 портал PesniGitara. Все тексты песен принадлежат их авторам. Копирование некоторых материалов портала только с разрешения администратора!