× Закрыть

The Girl I Knew Somewhere (The Monkees)

		
Intro: guitar (probably played in A, Capo III)  
 C Csus4 C Csus2 C Csus4 C Csus2  
 v v v v v v v v v v v v v v v v v  
[------------------------------------------------------------------------  
-5----------6-----5----------3-----5----------6-----5--------------3----  
-5----------5-----5----------5-----5----------5-----5--------------5----  
-5----------5-----5----------5-----5----------5-----5--------------5----  
-3----------3-----3----------3-----3----------3-----3--------------3----  
------------------------------------------------------------------------]  
 
bass fill (4th bar):  
[10h12-h12-h12-----  
 -----------10h12  
 ----------------  
 ----------------]  
 
 C  
Verse 1: You tell me that you've never been this way before  
 C7  
You tell me things I know that I've heard somewhere  
 F  
You're standing in the places  
 Fm  
And you're staring down through faces  
 C Dm  
That bring to mind traces of a girl  
 G C  
A girl that I knew somewhere  
 
Verse 2: I just can't put my finger on what it is  
That says to me watch out, don't believe her  
I can't give any reasons, girl  
My thoughts are bound down in a whirl  
I just can't think who in the world was that girl  
I know I met her somewhere  
 
Ebm Bb  
Bridge: Someway somehow the same thing was done  
 Ab G  
Someone somewhere did me the same wrong  
 
Instrumental break:  
(harpsichord solo over verse chords)  
 
repeat Intro  
 
Verse 3: Well goodbye dear, I just can't take this chance again  
My fingers are still burning from the last time  
And if your love was not a game  
I only have myself to blame  
That's as may be, I can't explain  
Just ask the girl that I knew somewhere  
 
repeat verse 3 from "And if your love..."  
 
Coda: (fade out on C chord)

Видео для песни "The Girl I Knew Somewhere":

 

Описание аккордов к песне (Генератор аккордов)

  • C ↓
    Аккорд C
  • Csus4 ↓
    Аккорд Csus4
  • Csus2 ↓
    Аккорд Csus2
  • C7 ↓
    Аккорд C7
  • F ↓
    Аккорд F
  • Fm ↓
    Аккорд Fm
  • Dm ↓
    Аккорд Dm
  • G ↓
    Аккорд G
  • Ebm ↓
    Аккорд Ebm
  • Ab ↓
    Аккорд Ab

 

Еще подборы:

 



Для связи с администратором: killger@gmail.com
©2013 - 2022 портал PesniGitara. Все тексты песен принадлежат их авторам. Копирование некоторых материалов портала только с разрешения администратора!