× Закрыть

Baba O (The Who)

		
covered by NIRVANA in 12/91  
 
Intro played with distortion, reverb and use a pedal that will make it  
screeechy sounding  
------------  
-9-10-12-10-  
------------  
------------  
------------  
------------  
VERSE & OUTRO  
-------------  
-------------  
---------4-2-  
-2-------4-2-  
-2-2-2-2-2-0-  
-0-0-0-0-----  
end verse with:  
-----  
-----  
-2-r-  
-2-r-  
-0-r-  
-----  
(r=let note ring)

Видео для песни "Baba O":

 

Описание аккордов к песне (Генератор аккордов)

 

Еще подборы:

 

Отзывы и комментарии:


Для связи с администратором: killger@gmail.com
©2013 - 2017 портал PesniGitara. Все тексты песен принадлежат их авторам. Копирование некоторых материалов портала только с разрешения администратора!