Гагарин я Вас любила (Ундервуд)

		

Em

Он обернулся простой такой

Am C H

И белозубый и незнакомый

Em

Пригладил волосы рукой

Am C H

Пока еще не сведен оскомой

Добрый добрый рот его

Нежной нежной улыбкой милой

Касался пусть бы был никто

Прощай прощай родной бесстыжий

Рефрэйн:

"...Жизнь пило-пилотаж..."

4|---3-0----------3-0-----

5|---------3-0-----------3-0-

6|-1------------1---------

4|---------------------------------------------------

5|--------0-1-1-2-1-2--------0-1-1-2-1-2-

6|-0-3---------------------0-3-------------------

"...Жизнь крыла спалила..."

4|---3-0-----------3-0---------------------------|

5|---------3-0------------3-0-2-2-2-2-2/9-9-9-9-7-5-|

6|-1------------1-------------------------------|

F Em

Жизнь пило-пилотаж

F H

Жизнь крыла спалила

Припев:

"... Гагарин я вас любила о-о-о ла-ла-ла-лай..."

3|--------------------------------------------------|

4|-2-2/5-4-4/7-5-5/9-7-7/10-9-9-5-7-7-4-5-5-2-------|

5|---------------------------------------------------------------------2-2---|

Em Am Em H

Гагарин я вас любила о ла-ла-ла-лай

Em Am Em H

Гагарин я вас любила о ла-ла-ла-лай

Em Am Em H

Гагарин я вас любила о ла-ла-ла-лай

Em Am Em H

Гагарин я вас любила о

Не знал он после как долго я

Была осколком его деталей

И в спину била его струя

И жал он молча свои педали

Больно больно потом упал

Расшибился из под обломков

Извлек себя и начертал

На фюзеляже златой иглокой

Рефрэйн

Припев

Главное соло - слушать очень внимательно:

(играется тремоло)

1|----------------------------------

2|----------------------------------

3|----------------------------------

4|-2-4-5-10-9-7-5-4-5-2-1-4-2---5-4-

5|-----------------------------------------2-----

6|----------------------------------

1|-----------------------------------------------------11-14-12-

2|--------------------------------------12-11-12----------

3|---------------4-8-9-11-14-12-------------------

4|-2-4-5-10----------------------------------

5|-------------------------------------------

6|-------------------------------------------

1|-12-12-12-10---------------13-13------------13-13-------

2|--------------------10--13-13-----------13-13----------13-13-

3|----------------------------------------------------------------------------

1|----------12-12-----------12-12----------------------13-13-------

2|-12-12-----------12-12-----------12-12--13-13----------13-13-

3|------------------------------------------------------------------------------------

1|--13-13-15-15-17-17-17-19-22-19-22-19-22-19-22-

2|-----------------------------------------------

3|-----------------------------------------------

тремоло

1|-----12-----10-8-7-5-3-7-7-7-6-5-|

2|-12-----12----------------------| } X2

3|-------------------------------|

Как будто правда что млечный путь

Господь спустил ему на ломпасы

Его погоны горят как ртуть

Он так прекрасен что нас колбасит

Белым светом наполнен он

Добрый славный себе смеется

Его душа как полигон

Ему светло и ей поется

Рефрэйн

Припев

Видео для песни "Гагарин я Вас любила":

 

Описание аккордов к песне (Генератор аккордов)

  • Am ↓
    Аккорд Am
  • C ↓
    Аккорд C
  • F ↓
    Аккорд F
  • Em ↓
    Аккорд Em

 

Еще подборы:

 

Отзывы и комментарии:


Для связи с администратором: killger@gmail.com
©2013 - 2016 портал PesniGitara. Все тексты песен принадлежат их авторам. Копирование некоторых материалов портала только с разрешения администратора!