× Закрыть

До свидания (Земфира)

		
Bm        E            Am     
 Луна убывает, такое бывает
D
Я иду стричься.
Dm        G                   C      
 Меня убивают, из "эмки" стреляют 
  F
В левую мышцу.
Bm        E               Am   
 И не попадают, что тоже бывает
D
Сбиты прицелы.
Dm       G                 C   
 А я улыбаюсь, живу и не старюсь
   F                Bm   E    
Четырнадцать целых лет.

         Am  
До свиданья,
F      G       C 
Мой любимый город
Dm    E     Am     Bb  C    F   E 
Я почти попала в хроники твои.
      Am    F      G       C 
Ожиданье - самый скучный повод
Dm        E       Am Bb    C     F   E 
Нам с тобой так мало надо для двоих.

Потухли все звезды совсем от мороза
Вс потемнели
Пожухли те розы
Вызвали слезы
И надоели

Ненужная проза из-за мороза
Будет ли белой
А я улыбаюсь, живу и стараюсь
И волосы целые

         Am  
До свиданья,
F      G       C 
Мой любимый город
Dm    E     Am     Bb  C    F   E 
Я почти попала в хроники твои.
      Am    F      G       C 
Ожиданье - самый скучный повод
Dm        E       Am Bb    C     F   E 
Нам с тобой так мало надо для двоих.

Тутти (гитара+бас):
e|-----------|------------|---------|-------------|-----------|------------|---------|-------|
B|-----------|------------|---------|-------------|-----------|------------|---------|-------|
G|---5-7--5--|-7-5--------|---5-7-5-|-7-----------|---5-7--5--|-7-5--------|---5-7-5-|-7-----|
D|-7--7----7-|----7----5-6|-7--7---7|---------5-6-|-7--7----7-|----7----5-6|-7--7---7|-------|
A|-----------|-----7-7----|---------|--7-----7----|-----------|-----7-7----|---------|--7----|
E|-----------|------------|---------|-------------|-----------|------------|---------|-------|

D|-----------------|-----------------|-----------------|--------|
A|-----------------|-----------------|-----------------|--------|
E|-3-3-3-3-3-3-3-3-|-2-2-2-2-2-2-2-2-|-1-1-1-1-1-1-1-1-|-0-0-3-4|

Соло (гитара)
e|--------7----5-----------------------------------------------------7-8-----8-7-10-7-8----8-7-4----------------
B|----5-5-------8-6-5-6-5-------5-------------------------------5-5-----------------------------6-5---5--6-5----
G|-------------------7------------7-5-4-7-5------3-5-7-5------------------------------------------------7----5s4
D|------------------------------------------------------7s6-----------------------------------------------------
A|--------------------------------------------------------------------------------------------------------------
E|--------------------------------------------------------------------------------------------------------------

         Am  
До свиданья,
F      G       C 
Мой любимый город
Dm    E     Am     Bb  C    F  E 
Я почти попала в хроники твои.
      Am    F      G       C 
Ожиданье - самый скучный повод
Dm    E      Am   Bb    C     F  E 
Как же я устала думать за двоих.

Видео для песни "До свидания":

 

Описание аккордов к песне (Генератор аккордов)

  • Bm ↓
    Аккорд Bm
  • E ↓
    Аккорд E
  • Am ↓
    Аккорд Am
  • D ↓
    Аккорд D
  • Dm ↓
    Аккорд Dm
  • G ↓
    Аккорд G
  • C ↓
    Аккорд C
  • F ↓
    Аккорд F

 

Еще подборы:

 

Отзывы и комментарии:


Для связи с администратором: killger@gmail.com
©2013 - 2018 портал PesniGitara. Все тексты песен принадлежат их авторам. Копирование некоторых материалов портала только с разрешения администратора!